BEYOND《时日无多》TXT赢咖2

歌手:赢咖2注册 来源:未知 2020-03-26 曲谱热度:°

Guitar 1 -- Clean electric guitar
Guitar 2 -- Distorted guitar
Guitar 3 -- Acoustic guitar

forword:
Thanks to Howard for this tab, but he made quite a lot of mistakes
in this one, so I had to modified quite a lot of it. Well, at least
I hope this tab is closer to the original!!!

/ == slide
^ == bend
+ == right hand palm mute
p == pulling off
h == hammering on
m == complete right hand mute after playing the note
T == Tap onto the note by right hand finger then pull the string

intro 1

Guitar 1
A C#m Bm D
e -x----5-x--x-5--x-x--x--4-x--x-4--x-x--x--2-x--x-2--x-x----5-5-5---------
B -x----5-x--x-5--x-x--x--5-x--x-5--x-x--x--3-x--x-3--x-x----7-7-7-8-7-----
G -x----6-x--x-6--x-x--x--6-x--x-6--x-x--x--4-x--x-4--x-x----7-7-7-----7---
D -x----7-x--x-7--x-x--x--6-x--x-6--x-x--x--4-x--x-4--x-x----7-7-7-------7-
A -x----7-x--x-7--x-x--x--4-x--x-4--x-x--x--2-x--x-2--x-x--5---------------
E -x----5-x--x-5--x-x------------------------------------------------------

Guitar 1
A C#m Bm D
e -x-x--5-x--x-5--x-x--x-x-4-4-4---------x-x-2-2-2-----------5-5-5---------
B -x-x--5-x--x-5--x-x--x-x-5-5-5-7-5-----x-x-3-3-3-5-3-------7-7-7-8-7---7-
G -x-x--6-x--x-6--x-x--x-x-6-6-6-----6---x-x-4-4-4-----4-----7-7-7-----7---
D -x-x--7-x--x-7--x-x--x-x-6-6-6-------6-x-x-4-4-4-------4---7-7-7---------
A -x-x--7-x--x-7--x-x--x-x-4-------------x-x-2-------------5---------------
E -x-x--5-x--x-5--x-x------------------------------------------------------

-------------------------------------------------------------------------------

intro 2 (keep playing above as background rhythm)

Guitar 2
A C#m Bm D
e -----------------------------------------------------------------------
B -^12-^12-^12-12-10---12--10-10-12~-------------------------------------
G --m---m------------11--11----------------2-4-^4-4-2-^4-T12-4-^4-T14-42~
D -------------------------------------2-4-+-+---------------------------
A -------------------------------------+-+-------------------------------
E -----------------------------------------------------------------------

Guitar 2
A C#m Bm D
e -----------------------------------------------------------------------
B -^12-^12-^12-12-10---12--10-10-12-10-----------------------------------
G --m---m------------11--11----------------2-4-^4-4-2-^4-T12-4-^4-T14-42~
D -------------------------------------2-4-+-+---------------------------
A -------------------------------------+-+-------------------------------
E -----------------------------------------------------------------------

-------------------------------------------------------------------------------

Verse 1
Repeat intro 1 once

-------------------------------------------------------------------------------

Verse 2 (with Guitar 1 strumming the chord)

Guitar 2 
D E D E
e -------------------------------------------------------------------------
B -------------------------------------------------------------------------
G -----------------------------------9--7~-------------------------7-6-----
D -------------------------------7-9-----------------------------------9-7-
A -----------------------------9-------------------------------------------
E -------------------------------------------------------------------------

Guitar 2
D E D E
e -------------------------------------------------------------------------
B -------------------------------------------------------------------------
G -----------------------------------9--7~---------------------------------
D -7~----------------------------7-9-------------------------------7-9-7---
A -----------------------------9---------------------------------9-------9-
E -------------------------------------------------------------------------

-------------------------------------------------------------------------------

Chorus 1 (with guitar 1 and guitar 3 strumming the chord)

Guitar 2
A C#m Bm E
e -------------------------------------------------------------------------
B -------------------------------------------------------------------------
G -------------------------------------------------------------------------
D -----------------------------7-9-7-------------------------------7-9-7---
A -7~------------------------9-------9---------------------------9-------9-
E --------------------------------------10~--------------------------------

Guitar 2
A C#m Bm E
e -------------------------------------------------------------------------
B -------------------------------------------------------------------------
G -------------------------------------------------------------------------
D -----------------------------7-9-7---------------------------------------
A -7~------------------------9-------9-------------------------------------
E --------------------------------------10~--------------------------------

-------------------------------------------------------------------------------

Bridge
Guitar 2
A C#m Bm D
e ------------------------------------------------------------------------
B -^12-^12-^12-12-10---12--10-10-12---------------------------------------
G --m---m------------11--11----------------2-4-^4-4-2

1.本站遵循行业规范,任何转载的曲谱和教程都会明确标注作者和来源;2.本站的原创曲谱,请转载时务必注明文章作者和来源,不尊重原创的行为我们将追究责任;3.作者投稿可能会经我们编辑修改或补充。

TXT谱 TXT赢咖2 Beyond 时日无多赢咖2
自动滚屏
关闭
自动滚屏